Grupo de rock duro con letras en castellano. Desde Logroño. La Rioja. España. Ritmos sencillos y mucha caña ... pero sobre todo buenas letras. puedes bajarte el disco completo y los videos gratis en la web.
#----------------------------------------LEE ESTO-------------------------------------------------#
#    Esta tablatura está registrada por Error Fatal en el registro de la propiedad intelectual.   #
#         Puede ser usada como te de la puta gana siempre y cuando nos pidas permiso.             #
#------------------------------------www.errorfatal.net-------------------------------------------#
Ritmo 1 de guitarra 1. para estrofa .
|------------------------------------------------------|
|------------------------------------------------------|
|-----------------5-5-5-5-5-5-5-------------7-5-7-5----|
|-7-7-7-7-7-7-7-7-5-5-5-5-5-5-5-2-2-2-5-5-5-7-5-7-5----|
|-7-7-7-7-7-7-7-7-3-3-3-3-3-3-3-2-2-2-5-5-5-5-3-5-3----|
|-5-5-5-5-5-5-5-5---------------0-0-0-3-3-3------------|


Ritmo 2. para estribillo. guitarra 1.  
|--------------------------------|
|--------------------------------|
|----------------3-3-3--5-5-5----|
|-3-3-3---7-7-7--3-3-3--5-5-5----|
|-3-3-3---7-7-7--1-1-1--3-3-3----|
|-1-1-1---5-5-5------------------|


guitarra 2 . en estribillo.
|-------------------------|-----------|
|-------------------------|-----------|
|-------------------!3-!3-|-!3-6s5----|
|-!3-!3-!3-!7-!7-!7-!3-!3-|-!3-5-5----|
|-!3-!3-!3-!7-!7-!7-!1-!1-|-!1--------|
|-!1-!1-!1-!5-!5-!5-------|-----------|


      ~~~  Riff 1 para guitarra 2 en cambio.
|------------|
|------------|
|-----5b6----|
|-5s7--------|
|------------|
|------------|


      ~~~         ~~~ Riff 2 para guitarra 2 en cambio.
|------------------------|
|------------------------|
|-----5b6-----9-7-5b6----|
|-5s7--------------------|
|------------------------|
|------------------------|

CORTINA DE SAL

Anclado a la tierra, que me vio nacer 
distante del mundo, cansado lucha contra el tiempo
Ojos cerrados a la espera, manos cruzadas desesperan 
Rostro inmóvil, que ignora la sonrisa

Decido mi destino, tras la cortina de sal
Recompensa de una vida , para el ultimo viaje
Justo precio, por la libertad
Cambio de futuro, o me quedo en el mar. 

Rostros oscuros, maquinan la fuga perfecta
Con amargura, decido mi destino al morir el día
No espero mi futuro (sentado), diviso la puerta de salida
Las tinieblas ocultan el camino en la huida

Fue al amanecer, la eterna oscuridad 
Perdona el orgullo de un país que olvida, 
Cerebros desgastados , venda en los ojos a las tres.
La soledad es el principio y el final

[Estribillo]
cruzar la cortina de sal, en busca de la libertad.
cruzar la cortina de sal, sin miedo a morir en el mar.
cruzar la cortina de sal, en una vieja patera
cruzar la cortina de sal, eterna oscuridad

Gtr I (E A D G B E) - MI-LA-RE-SOL-SI-MI    
www.errorfatal.net