Grupo de rock duro con letras en castellano. Desde Logroño. La Rioja. España. Ritmos sencillos y mucha caña ... pero sobre todo buenas letras. puedes bajarte el disco completo y los videos gratis en la web.
#----------------------------------------LEE ESTO-------------------------------------------------#
#    Esta tablatura está registrada por Error Fatal en el registro de la propiedad intelectual.   #
#         Puede ser usada como te de la puta gana siempre y cuando nos pidas permiso.             #
#------------------------------------www.errorfatal.net-------------------------------------------#
Guitarra 1 . + bajo . cambio. 1.
|-----------------------------|-----------------|----------------|
|-----------------------------|-----------------|----------------|
|-------5-5-5-5-5-------------|-------5-5-5-5-5-|----------------|
|-------5-5-5-5-5-0-5-5-5-5-5-|-------5-5-5-5-5-|-0-5-5-5-5-5----|
|-------3-3-3-3-3-0-5-5-5-5-5-|-------3-3-3-3-3-|-0-5-5-5-5-5----|
|-0-3-5-------------3-3-3-3-3-|-0-3-5-----------|---3-3-3-3-3----|

Ritmo 1.
|-----------------|-----------------|----------------------|
|-----------------|-----------------|----------------------|
|-------5-5-5-5-5-|-----------------|---5-5-5-5-5---7-7----|
|-------5-5-5-5-5-|-0-5-5-5-5-5-----|---5-5-5-5-5-0-5-5----|
|-------3-3-3-3-3-|-0-5-5-5-5-5-----|---3-3-3-3-3-0--------|
|-0-3-5-----------|---3-3-3-3-3-0-3-|-5--------------------|


Ritmo para estrofa . guitarra 1.
|------------------------------------|
|-----------------6-6-6-6-8-8-8-8----|
|-5-5-5-5-2-2-2-2-5-5-5-5-7-7-7-7----|
|-5-5-5-5-2-2-2-2-3-3-3-3-5-5-5-5----|
|-3-3-3-3-0-0-0-0--------------------|
|------------------------------------|


Ritmo para estribillo.
|----------------------------------------------------------------|
|----------------------------------------------------------------|
|-----------7-7-7-7-7-5-5-5-5-5-----------7-7-7-7-7--------------|
|-5-5-5-5-5-7-7-7-7-7-5-5-5-5-5-5-5-5-5-5-7-7-7-7-7-7-7-7-7-7----|
|-5-5-5-5-5-5-5-5-5-5-3-3-3-3-3-5-5-5-5-5-5-5-5-5-5-7-7-7-7-7----|
|-3-3-3-3-3---------------------3-3-3-3-3-----------5-5-5-5-5----|


      ~~~     ~~~       ~~~       ~  riif para guitara 2 en puente 1.
|---------------------|----------------|
|---------------------|----------------|
|---------------------|----------------|
|-----5b6-----5b6-----|-5b6-7s5--------|
|---7-------7-------7-|---------7-5----|
|-8-------8-------8---|----------------|


                ~           ~~~ riff 2 para guitarra 2 en parón.
|----------------------------------|
|----------------------------------|
|-----5-7b9-7-5-7-7b8-7b9-5-5b6----|
|-5s7------------------------------|
|----------------------------------|
|----------------------------------|
FIN DE SEMANA
Hace tiempo que ha cambiado tu forma de ser
ya no eres como antes que salías a romper
ahora vas tranquilo y sin apenas privar
tu vida ha girado que pena me das

Ahora  buscas novia, una  relación formal
algo serio , niñas de papa
fiestas de cumpleaños y aniversario también
y además  con ella no puedes beber

aunque  sea solo por esta vez
recordar los tiempos cuando salías a romper
Que te quiten lo bailao, el que tuvo retuvo

kalimotxo, whisky, un tinto peleon
porque este finde puede ser la ocasión
y recorrer de arriba abajo la mayor 
para recordar tus dotes de vacilón
  
[ESTRIBILLO]
Este fin de semana va a ser mortal
Voy a salir de juerga hasta reventar
Voy a pasar de tias , voy a pasar de ligar
Voy a ir a lo mío, voy a ir a privar (  y lo mío es privar)

Gtr I (E A D G B E) - MI-LA-RE-SOL-SI-MI    
www.errorfatal.net