Grupo de rock duro con letras en castellano. Desde Logroño. La Rioja. España. Ritmos sencillos y mucha caña ... pero sobre todo buenas letras. puedes bajarte el disco completo y los videos gratis en la web.
#----------------------------------------LEE ESTO-------------------------------------------------#
#    Esta tablatura está registrada por Error Fatal en el registro de la propiedad intelectual.   #
#         Puede ser usada como te de la puta gana siempre y cuando nos pidas permiso.             #
#------------------------------------www.errorfatal.net-------------------------------------------#

Ritmo 1 . intro guitarra 1.
|--------------------------------|-----------------|-------------------|
|-------------8------------------|-------------8---|-------------------|
|-------------7-------------9b11-|-------------7---|-----------9b11----|
|-0-0-0-0-0-0---0-0-0-0-0-0------|-0-0-0-0-0-0---0-|-0-0-0-0-0---------|
|--------------------------------|-----------------|-------------------|
|--------------------------------|-----------------|-------------------|

Ritmo 2 para intro.                                  PM
|---------------------------------------------------------------------|
|---------------------------------------------------------------------|
|-9b11-9-7-9-9b11-7-7-7-7--5-5-5---------5----------------------------|
|-------------------7-7-7--3-3-3-3-3-3-7-5-----3s5-5-5-5-5-5-5-5-5----|
|-------------------5-5-5--------1-1-1-5-3-3-5------------------------|
|---------------------------------------------------------------------|

Ritmo para estrofa.
|-----------------------------------------------------------------------|
|-------------------------6-6-6-6-6-6-6-6-6-6-6-6-----------------------|
|-7-7-7-7-7-7-7-7-7-7-7-7-5-5-5-5-5-5-5-5-5-5-5-5-3-3-3-3-3-3-7-7-7-7-7-|
|-7-7-7-7-7-7-7-7-7-7-7-7-3-3-3-3-3-3-3-3-3-3-3-3-3-3-3-3-3-3-3-7-7-7-7-|
|-5-5-5-5-5-5-5-5-5-5-5-5-------------------------1-1-1-1-1-1-5-5-5-5-5-|
|-----------------------------------------------------------------------|


|------------------------|
|------------------------|
|-7-5-5-5-5-5-5-5-5-5----|
|-7-5-5-5-5-5-5-5-5-5----|
|-5-3-3-3-3-3-3-3-3-3----|
|------------------------|


                  ~    PM              ~   PM            ~  Riffs para acompañar . guitarra 2.
|-------------------------------------------------------------|
|-------------------------------------------------------------|
|-------------------------------------------------------------|
|-----3s5-3-----3----------3-----3---3-5---5-5-3---3---3-5----|
|-3s5-------5b6---5----5-5---5-5---5-------------5---5--------|
|-------------------------------------------------------------|


                           ~~   PM Riffs 2 para guitarra 2.
|----------------------------|-------------------------|
|----------------------------|-------------------------|
|----------------------------|-------------------------|
|-------15s18-15-------15----|-------15-------15----15-|
|-15s18----------18b19----18-|-18-18----18-18----18----|
|----------------------------|-------------------------|


   ~~ PM                     ~~  Riffs 3.
|-------------------------|-------|
|-------------------------|-------|
|-------------------------|-------|
|-18-18-18-15----15----15-|-18----|
|-------------18----18----|-------|
|-------------------------|-------|

LO QUE HAGO POR TI

Siento algo muy especial -- siempre que salgo contigo--
no necesito-- nada más -- sólo tus besos cariño
Desgraciado de mi -- te regalo una rosa --y tu dices,
Que la he robado en tu jardín

Llamo a los 40 y te dedico una canción
Una nota en tu puerta , una declaración de amor
Yo no soy menos que el tío de tu pared
Yo no soy guapo ni rico pero te daré placer
Y esto es todo lo que yo hago por ti
Y tu respuesta siempre es la misma ..... marcha de aquí, feo cabrón 

Siento algo muy especial siempre que salgo contigo,
no necesito nada más, sólo tus besos cariño
compro la colonia que sale en televisión
solo por conquistarte, todo por hacerte el amor
pero creo que ya, no mereces mi amor
una tía mas barata es la mejor solución
y esto es todo lo que yo hago por ti
Y tu respuesta siempre es la misma ..... marcha de aquí, feo cabrón 

Y esto es todo lo que yo hago por ti
Y tu respuesta siempre es la misma ..... 

Gtr I (E A D G B E) - MI-LA-RE-SOL-SI-MI    
www.errorfatal.net