Grupo de rock duro con letras en castellano. Desde Logroño. La Rioja. España. Ritmos sencillos y mucha caña ... pero sobre todo buenas letras. puedes bajarte el disco completo y los videos gratis en la web.
#----------------------------------------LEE ESTO-------------------------------------------------#
#    Esta tablatura está registrada por Error Fatal en el registro de la propiedad intelectual.   #
#         Puede ser usada como te de la puta gana siempre y cuando nos pidas permiso.             #
#------------------------------------www.errorfatal.net-------------------------------------------#
Ritmo 1 . para intro. guitarra 1 + guitarra 2.
|--------------------0------------|
|----------------------3---3-0----|
|------------------------5--------|
|-2-2-2-2-2-2-2-2-----------------|
|-2-2-2-2-2-2-2-2-----------------|
|-0-0-0-0-0-0-0-0--0--------------|


Ritmo 2 . para intro. guitarra 1 + guitarra 2.
|-----------------|---0--------------|
|-----------------|-----3---3-0------|
|-----------------|-------5-----0----|
|-2-2-2-2-2-2-2-2-|------------------|
|-2-2-2-2-2-2-2-2-|------------------|
|-0-0-0-0-0-0-0-0-|-0----------------|


Ritmo 3 . para intro. guitarra 1 + guitarra 2.
|-----------------|----------------------|
|-----------------|----------------------|
|-----------------|----------------------|
|-2-2-2-2-2-2-2-2-|----------------------|
|-2-2-2-2-2-2-2-2-|-----7-----7-----7----|
|-0-0-0-0-0-0-0-0-|-0-6---0-6---0-6------|


Ritmo 4 . para intro. guitarra 1 + guitarra 2.
|-----------------|------------------------|
|-----------------|---5------5-------5-----|
|-----------------|--[5]-----5-------5-----|
|-2-2-2-2-2-2-2-2-|---5------5-------5-----|
|-2-2-2-2-2-2-2-2-|--[5]----[5]-----[5]----|
|-0-0-0-0-0-0-0-0-|------------------------|

Ritmo lento para estrofa 1.
|----------------------------------|
|----------------------------------|
|----------------------------------|
|-2-2-2-2-2-2-2-2------------------|
|-2-2-2-2-2-2-2-2-------0----------|
|-0-0-0-0-0-0-0-0-0-3-5---5-3-0----|


Ritmo rápido para estrofa 2.
|--------------------------------------|
|--------------------------------------|
|-7-7-7-7-------------------5-5-5-5----|
|-7-7-7-7--7-7-7-7--3-3-3-3-5-5-5-5----|
|-5-5-5-5--7-7-7-7--3-3-3-3-3-3-3-3----|
|----------5-5-5-5--1-1-1-1------------|


Riffs para el cambio. puente 2.
|-----------------|-----------------|----------------|
|-----------------|-----------------|----------------|
|-----------------|-----------------|----------------|
|-2-2-2-2---------|-------2-2-2-2---|----------------|
|-2-2-2-2-------0-|-------2-2-2-2---|-----0----------|
|-0-0-0-0-0-3-5---|-5-3-0-0-0-0-0-0-|-3-5---5-3-0----|

MIEDO INTERIOR

Perdido en mi interior, como en un cuento de hadas
Fiebre de rencor, mas tristeza en mi cabeza
Luchando criaturas enloquecidas por lo subliminal 
Rostro ensangrentado, se distinguen mis ojos abiertos

Lágrimas negras que el tiempo despacio secará
Sangre derramada, se oyen llantos y suspiros
El espíritu de las sombras gira y se lamenta
Es el alma encerrada, grita, sonrie, me mira

Extrañez en su mirada, amargura en sus palabras
Manos llenas de odio, esplanadas de vísceras
Presa de mi bestia, dulce calma en mi destierro
Muerte a mis espaldas, vivo presa del lamento

Cadáveres bajo la lluvia, explotan las venas
Abrazado a mis penas, miserias del momento
Hundo mis pies en el fango, me agarro a tu tristeza
Arrastro mis cadenas, cada día pesan mas

Payaso depresivo, arrastra sueños de grandeza
Gusanos a la carrera, de la mentira descompuesta
Una vagina entre los dientes, aviva la esperanza
Hundo mis pies en el fango, me agarro a tu tristeza

Gtr I (E A D G B E) - MI-LA-RE-SOL-SI-MI    
www.errorfatal.net