Grupo de rock duro con letras en castellano. Desde Logroño. La Rioja. España. Ritmos sencillos y mucha caña ... pero sobre todo buenas letras. puedes bajarte el disco completo y los videos gratis en la web.
#----------------------------------------LEE ESTO-------------------------------------------------#
#    Esta tablatura está registrada por Error Fatal en el registro de la propiedad intelectual.   #
#         Puede ser usada como te de la puta gana siempre y cuando nos pidas permiso.             #
#------------------------------------www.errorfatal.net-------------------------------------------#
Intro de guitarra 1.
|-------------------------|-----------------|
|-----6s3---4s3---3-------|-----6s3---4s3---|
|-------------------------|-----------------|
|-3-3-----3-----3---3b3.5-|-3-3-----3-----3-|
|-------------------------|-----------------|
|-------------------------|-----------------|

|---------------------|----------------||
|-3-----------6s3---4s|=3---3---------o||
|---------------------|----------------||
|---3b3.5-3-3-----3---|---3---3b3.5----||
|---------------------|---------------o||
|---------------------|----------------||

Fin de Intro de guitarra 1.
|-----------------|------|
|-4-3---3-4-3-----|-6----|
|-----5-------5-3-|-5----|
|-----------------|-3----|
|-----------------|------|
|-----------------|------|


Ritmo de estrofa. guitarra 1+ guitarra 2.  
|--------------------------------------------------------------------|
|--------------------------------------------------------------------|
|-----------------5-5-5-5-5-5-5-5-3-3-3-3-3-3-3-3-7-7-7-7-7-7-7-7----|
|-3-3-3-3-3-3-3-3-5-5-5-5-5-5-5-5-3-3-3-3-3-3-3-3-7-7-7-7-7-7-7-7----|
|-3-3-3-3-3-3-3-3-3-3-3-3-3-3-3-3-1-1-1-1-1-1-1-1-5-5-5-5-5-5-5-5----|
|-1-1-1-1-1-1-1-1----------------------------------------------------|


Cambio 1 para estribillo.
|-----------------------------------------------------------|
|-----------------------------------------------------------|
|-5-----------------------------5---------------------------|
|-3-5-7--7-7-7-7-7-7-7-7-7-7----3-5-3--3-3-3-3-3-3-3-3-3----|
|---3-5--5-5-5-5-5-5-5-5-5-5------3-1--1-1-1-1-1-1-1-1-1----|
|-----------------------------------------------------------|


 Puente antes de estrofa.
|-------------------------------|----------------------------------|
|-------------------------------|----------------------------------|
|-5---5---5---------------------|-5---5---5------------------------|
|-3-5-3-5-3-5-7-7-7-7-7-7-7-7-7-|-3-5-3-3-3-5-3-3-3-3-3-3-3-3-3----|
|---3---3---3-5-5-5-5-5-5-5-5-5-|---3---5---3-1-1-1-1-1-1-1-1-1----|
|-------------------------------|----------------------------------|


            ~~~                 ~ Riff para acompañar ritmo de estrofa.
|------------------------------------|
|-6-6-6s4-4s3b4-----3-3--------------|
|---------------5b6-----5-3-5-3------|
|-------------------------------3----|
|-------------------------------3----|
|------------------------------------|

PISANDO FLORES

Corazón inundado de lágrimas, late al compás del miedo
Juegan a la guerra, caen mentes al suelo
Niños que pisan las trampas, saltan trozos por el cielo
Como pisotean las flores, ruge la tierra con furia y odio

Tiembla el suelo, te invito a jugar conmigo
Murmurando al oído de una oreja sin cuerpo
Cae la noche, la sombra reina, sopla el viento
Las tumbas se cavan solas, la ignorancia es mi castigo 

Cubre de bellas víctimas el suelo, el corazón ya no palpita
callar con melancolía, y gritar en tono de reproche
soplos de una vida, abandonados en la fría noche
no se oyen gritos ni suspiros solo hojas que el viento agita

Quien le paga una muleta, para apoyarse en la vida
Cuerpo mutilado en busca de una muerte digna
Visita de la dama sin avisar, joder espera un poco más
Me has enseñado a odiar, me has enseñado a odiar

[ESTRIBILLO]
Pi—sando flores
Pi---suena en mis oídos 
Pi—sando flores
Pi-- saltan trozos por el cielo

Gtr I (E A D G B E) - MI-LA-RE-SOL-SI-MI    
www.errorfatal.net