Grupo de rock duro con letras en castellano. Desde Logroño. La Rioja. España. Ritmos sencillos y mucha caña ... pero sobre todo buenas letras. puedes bajarte el disco completo y los videos gratis en la web.
#----------------------------------------LEE ESTO-------------------------------------------------#
#    Esta tablatura está registrada por Error Fatal en el registro de la propiedad intelectual.   #
#         Puede ser usada como te de la puta gana siempre y cuando nos pidas permiso.             #
#------------------------------------www.errorfatal.net-------------------------------------------#

Ritmo 1 para estrofa.
|-----------------------------------------------------------|
|-----------------------------------------------------------|
|-----------------------------------------------------------|
|-7-7-7-7-7-7-7-7-7-7-7-3-3-3-3-3-3-3-3-3-3-3-3--5-5-5-5----|
|-7-7-7-7-7-7-7-7-7-7-7-3-3-3-3-3-3-3-3-3-3-3-3--5-5-5-5----|
|-5-5-5-5-5-5-5-5-5-5-5-1-1-1-1-1-1-1-1-1-1-1-1--3-3-3-3----|


Ritmo para estribillo.
|---------------------------|
|---------------------------|
|-2-2---2-2-2-2-------------|
|-2-2---2-2-2-2--3-3-5-5----|
|-0-0---0-0-0-0--3-3-5-5----|
|----------------1-1-3-3----|

Riff para estrofa de guitarra 2 y bajo.
|-------------------|-----------------|-----------------|--------|
|-------------------|-----------------|-----------------|--------|
|-------------------|-----------------|-----------------|--------|
|-----7---7---7-----|-----3---3---1---|-------5---5---5-|--------|
|---------------5s7-|---------------1s|=3---------------|-3s5----|
|-5-5---5---5-------|-1-1---1---1-----|---3-3---3---3---|--------|

ROTO EL SILENCIO

Por fin la luz, aprietan las riendas de la razón
Nada alrededor, he conocido la locura
Rojo atardecer, quién guía tus pasos
Al caer la noche, días de viento gris

Tiempos de duda, pasaron los días de gloria
que no logro recordar, todo queda lejos
Fluye mi sangre, abrazado a mis sueños
como a un clavo ardiendo, dame tiempo

Capricho del destino, esclavo de la realidad
oídos sordos, preguntas vacías, huir del ruido
Respuestas necias, sueños perdidos en la oscuridad
Condenado a escuchar, perdido en el vacío

[Estribillo]
Roto el silencio, dejo de pensar
Roto el silencio, rotas las vendas
Roto el silencio, donde vas tan solo
Roto el silencio, roto el mensaje

Roto el silencio, ni un ruido en mi alma
Roto el silencio, silencio imposible
Roto el silencio, paso firme
Roto el silencio, mirada de rabia

Roto el silencio, la vida viene detrás
Roto el silencio, déjame en paz
Roto el silencio, ya no puedo mas
Roto el silencio, mis ojos descansan
 


Gtr I (E A D G B E) - MI-LA-RE-SOL-SI-MI    
www.errorfatal.net