Grupo de rock duro con letras en castellano. Desde Logroño. La Rioja. España. Ritmos sencillos y mucha caña ... pero sobre todo buenas letras. puedes bajarte el disco completo y los videos gratis en la web.
#----------------------------------------LEE ESTO-------------------------------------------------#
#    Esta tablatura está registrada por Error Fatal en el registro de la propiedad intelectual.   #
#         Puede ser usada como te de la puta gana siempre y cuando nos pidas permiso.             #
#------------------------------------www.errorfatal.net-------------------------------------------#
Intro de guitarra 2.
|--------------------------------------|
|--------------------------------------|
|-----5-5-7-7-9-9-9-7-5---5-7s5---5----|
|-5-5-------------------9-------9-5----|
|--------------------------------------|
|--------------------------------------|


Intro 2.
|---------------------|-----------------------|------|
|---------------------|-----------------------|------|
|-----9-9-11-11-13-13-|-13-11-13----9-11s9----|-9----|
|-9-9-----------------|----------13--------14-|-9----|
|---------------------|-----------------------|------|
|---------------------|-----------------------|------|


Fin de la intro.
|-----------------|
|-----------------|
|---9-11-13b17----|
|-9---------------|
|-----------------|
|-----------------|


Ritmo de estrofa. 
|----------------------------------------------------|
|----------------------------------------------------|
|-5-5-5-5-5-5----------------------------------------|
|-5-5-5-5-5-5-5-5-5-5-5-5-7-7-7-7-7-7-3-3-3-3-3-3----|
|-3-3-3-3-3-3-5-5-5-5-5-5-7-7-7-7-7-7-3-3-3-3-3-3----|
|-------------3-3-3-3-3-3-5-5-5-5-5-5-1-1-1-1-1-1----|
 
puente 2. 
|---------------------------------------------------------|
|---------------------------------------------------------|
|---------------------------------------------------------|
|--------------------------2-2-2-2-2----------------------|
|--5-5-5-5-2-2-2-2-5-5-5-5-0-0-0-0-0-5-5-5-5-5------------|
|--3-3-3-3-0-0-0-0-3-3-3-3-----------3-3-3-3-3------------|


       T      T              T      T Tapping de guitarra 2.
|---------------------|-------------------|
|-5s8-12-5s8-12-5s8-5s|=5s8-13-5s8-13-5s8-|
|---------------------|-------------------|
|---------------------|-------------------|
|---------------------|-------------------|
|---------------------|-------------------|


     T      T      T    T      T      T        T
 |--------------------|--------------------|------|
|-8-12-5s8-12-5s8-12-|-13-5s8-13-5s8-13-5s|=8-13-|
|--------------------|--------------------|------|
|--------------------|--------------------|------|
|--------------------|--------------------|------|
|--------------------|--------------------|------|


       T      T              T      T
|-------------------|-------------------|
|-5s8-12-5s8-13-5s8-|-5s5s8-12-5s8-13-5s|
|-------------------|-------------------|
|-------------------|-------------------|
|-------------------|-------------------|
|-------------------|-------------------|


       T      T        T       T      T        T
|-------------------|-------------------|--------|
|-8-8-12-5s8-13-5s8-|-12--5s8-13-5s8-12-|-5s8-13-|
|-------------------|-------------------|--------|
|-------------------|-------------------|--------|
|-------------------|-------------------|--------|
|-------------------|-------------------|--------|
HUBO TIEMPOS MEJORES

Te pilla el tiempo de madrugada, algo te hace recordar
Pitillo en tu boca, buena resaca, hubo tiempos mejores
Tiempos en que la gloria, te pisaba los talones
Aquellos días de ases, aquellos.. no volverán

Vasos llenos de olvido, sombras que huyen al salir el sol
Calles mojadas que guardan, el recuerdo de un depredador
Un trago mas de birra, y va pasando la vida
Un cadáver se esconde en la barra, un cadáver que puedo ser yo

Huellas inocentes en el pasado, que el tiempo no borrará
Portando banderas, luciendo retratos, dulces sueños de cristal
Ahora todo es distinto, ahora todo es fatal, resistió la locura del corazón
Aun recuerdo aquellos ojos, la mirada, [] reflejo del sol

Capitán de un barco hundido, naufragó de esta puta vida
Mi viejo caballo de guerra, otra batalla perdida
Hoy derrotado por la resaca, el pitillo se consumió
Nostálgicos recuerdos me empujan a escribir, esta triste canción

[ESTRIBILLO]
no volverán
hubo tiempos mejores 
la vida te la jugó una vez más.
.....nunca jamás.....



Gtr I (E A D G B E) - MI-LA-RE-SOL-SI-MI    
www.errorfatal.net